ISO-10303-21;
HEADER;
/* Generated by software containing ST-Developer
 * from STEP Tools, Inc. (www.steptools.com) 
 */

FILE_DESCRIPTION(
/* description */ (''),
/* implementation_level */ '2;1');

FILE_NAME(
/* name */ 
'V:\\Disegni-3D-Cliente\\II. Indicatori di Intasamento\\Indicatori Bar
ometrici\\VV\\VV_B_xx_P01_rev00.stp',
/* time_stamp */ '2015-10-26T09:43:23+01:00',
/* author */ ('cad10'),
/* organization */ (''),
/* preprocessor_version */ 'ST-DEVELOPER v15.2',
/* originating_system */ 'Autodesk Inventor 2014',
/* authorisation */ '');

FILE_SCHEMA (('AUTOMOTIVE_DESIGN { 1 0 10303 214 3 1 1 }'));
ENDSEC;

DATA;
#10=SHAPE_REPRESENTATION_RELATIONSHIP('SRR','None',#345,#11);
#11=ADVANCED_BREP_SHAPE_REPRESENTATION($,(#202),#336);
#12=LINE($,#305,#24);
#13=LINE($,#307,#25);
#14=LINE($,#309,#26);
#15=LINE($,#310,#27);
#16=LINE($,#315,#28);
#17=LINE($,#317,#29);
#18=LINE($,#319,#30);
#19=LINE($,#320,#31);
#20=LINE($,#324,#32);
#21=LINE($,#325,#33);
#22=LINE($,#327,#34);
#23=LINE($,#329,#35);
#24=VECTOR($,#252,14.);
#25=VECTOR($,#253,14.);
#26=VECTOR($,#254,14.);
#27=VECTOR($,#255,14.);
#28=VECTOR($,#260,14.);
#29=VECTOR($,#261,14.);
#30=VECTOR($,#262,14.);
#31=VECTOR($,#263,14.);
#32=VECTOR($,#268,5.);
#33=VECTOR($,#269,5.);
#34=VECTOR($,#272,5.);
#35=VECTOR($,#275,5.);
#36=PLANE($,#207);
#37=PLANE($,#208);
#38=PLANE($,#213);
#39=PLANE($,#214);
#40=PLANE($,#217);
#41=PLANE($,#219);
#42=PLANE($,#220);
#43=PLANE($,#221);
#44=PLANE($,#222);
#45=PLANE($,#225);
#46=STYLED_ITEM($,(#354),#188);
#47=STYLED_ITEM($,(#355),#194);
#48=STYLED_ITEM($,(#355),#195);
#49=STYLED_ITEM($,(#355),#196);
#50=STYLED_ITEM($,(#355),#197);
#51=STYLED_ITEM($,(#355),#198);
#52=STYLED_ITEM($,(#355),#199);
#53=STYLED_ITEM($,(#355),#200);
#54=STYLED_ITEM($,(#353),#202);
#55=FACE_BOUND($,#78,.T.);
#56=FACE_BOUND($,#81,.T.);
#57=FACE_BOUND($,#83,.T.);
#58=FACE_BOUND($,#84,.T.);
#59=FACE_BOUND($,#85,.T.);
#60=FACE_BOUND($,#87,.T.);
#61=FACE_BOUND($,#89,.T.);
#62=FACE_BOUND($,#91,.T.);
#63=FACE_BOUND($,#97,.T.);
#64=FACE_OUTER_BOUND($,#77,.T.);
#65=FACE_OUTER_BOUND($,#79,.T.);
#66=FACE_OUTER_BOUND($,#80,.T.);
#67=FACE_OUTER_BOUND($,#82,.T.);
#68=FACE_OUTER_BOUND($,#86,.T.);
#69=FACE_OUTER_BOUND($,#88,.T.);
#70=FACE_OUTER_BOUND($,#90,.T.);
#71=FACE_OUTER_BOUND($,#92,.T.);
#72=FACE_OUTER_BOUND($,#93,.T.);
#73=FACE_OUTER_BOUND($,#94,.T.);
#74=FACE_OUTER_BOUND($,#95,.T.);
#75=FACE_OUTER_BOUND($,#96,.T.);
#76=FACE_OUTER_BOUND($,#98,.T.);
#77=EDGE_LOOP($,(#143));
#78=EDGE_LOOP($,(#144));
#79=EDGE_LOOP($,(#145));
#80=EDGE_LOOP($,(#146));
#81=EDGE_LOOP($,(#147));
#82=EDGE_LOOP($,(#148));
#83=EDGE_LOOP($,(#149));
#84=EDGE_LOOP($,(#150));
#85=EDGE_LOOP($,(#151));
#86=EDGE_LOOP($,(#152));
#87=EDGE_LOOP($,(#153,#154,#155,#156));
#88=EDGE_LOOP($,(#157));
#89=EDGE_LOOP($,(#158));
#90=EDGE_LOOP($,(#159,#160,#161,#162));
#91=EDGE_LOOP($,(#163));
#92=EDGE_LOOP($,(#164,#165,#166,#167));
#93=EDGE_LOOP($,(#168,#169,#170,#171));
#94=EDGE_LOOP($,(#172,#173,#174,#175));
#95=EDGE_LOOP($,(#176,#177,#178,#179));
#96=EDGE_LOOP($,(#180));
#97=EDGE_LOOP($,(#181));
#98=EDGE_LOOP($,(#182));
#99=CIRCLE($,#205,19.);
#100=CIRCLE($,#206,19.);
#101=CIRCLE($,#209,21.);
#102=CIRCLE($,#210,20.5);
#103=CIRCLE($,#212,21.);
#104=CIRCLE($,#215,20.5);
#105=CIRCLE($,#218,4.864);
#106=CIRCLE($,#224,4.864);
#107=VERTEX_POINT($,#286);
#108=VERTEX_POINT($,#288);
#109=VERTEX_POINT($,#292);
#110=VERTEX_POINT($,#294);
#111=VERTEX_POINT($,#297);
#112=VERTEX_POINT($,#301);
#113=VERTEX_POINT($,#303);
#114=VERTEX_POINT($,#304);
#115=VERTEX_POINT($,#306);
#116=VERTEX_POINT($,#308);
#117=VERTEX_POINT($,#313);
#118=VERTEX_POINT($,#314);
#119=VERTEX_POINT($,#316);
#120=VERTEX_POINT($,#318);
#121=VERTEX_POINT($,#321);
#122=VERTEX_POINT($,#332);
#123=EDGE_CURVE($,#107,#107,#99,.T.);
#124=EDGE_CURVE($,#108,#108,#100,.T.);
#125=EDGE_CURVE($,#109,#109,#101,.T.);
#126=EDGE_CURVE($,#110,#110,#102,.T.);
#127=EDGE_CURVE($,#111,#111,#103,.T.);
#128=EDGE_CURVE($,#112,#112,#104,.T.);
#129=EDGE_CURVE($,#113,#114,#12,.T.);
#130=EDGE_CURVE($,#114,#115,#13,.T.);
#131=EDGE_CURVE($,#115,#116,#14,.T.);
#132=EDGE_CURVE($,#116,#113,#15,.T.);
#133=EDGE_CURVE($,#117,#118,#16,.T.);
#134=EDGE_CURVE($,#119,#117,#17,.T.);
#135=EDGE_CURVE($,#120,#119,#18,.T.);
#136=EDGE_CURVE($,#118,#120,#19,.T.);
#137=EDGE_CURVE($,#121,#121,#105,.T.);
#138=EDGE_CURVE($,#117,#114,#20,.T.);
#139=EDGE_CURVE($,#119,#113,#21,.T.);
#140=EDGE_CURVE($,#120,#116,#22,.T.);
#141=EDGE_CURVE($,#118,#115,#23,.T.);
#142=EDGE_CURVE($,#122,#122,#106,.T.);
#143=ORIENTED_EDGE($,*,*,#123,.T.);
#144=ORIENTED_EDGE($,*,*,#124,.F.);
#145=ORIENTED_EDGE($,*,*,#123,.F.);
#146=ORIENTED_EDGE($,*,*,#125,.T.);
#147=ORIENTED_EDGE($,*,*,#126,.T.);
#148=ORIENTED_EDGE($,*,*,#127,.F.);
#149=ORIENTED_EDGE($,*,*,#125,.F.);
#150=ORIENTED_EDGE($,*,*,#124,.T.);
#151=ORIENTED_EDGE($,*,*,#127,.T.);
#152=ORIENTED_EDGE($,*,*,#128,.T.);
#153=ORIENTED_EDGE($,*,*,#129,.T.);
#154=ORIENTED_EDGE($,*,*,#130,.T.);
#155=ORIENTED_EDGE($,*,*,#131,.T.);
#156=ORIENTED_EDGE($,*,*,#132,.T.);
#157=ORIENTED_EDGE($,*,*,#126,.F.);
#158=ORIENTED_EDGE($,*,*,#128,.F.);
#159=ORIENTED_EDGE($,*,*,#133,.F.);
#160=ORIENTED_EDGE($,*,*,#134,.F.);
#161=ORIENTED_EDGE($,*,*,#135,.F.);
#162=ORIENTED_EDGE($,*,*,#136,.F.);
#163=ORIENTED_EDGE($,*,*,#137,.T.);
#164=ORIENTED_EDGE($,*,*,#134,.T.);
#165=ORIENTED_EDGE($,*,*,#138,.T.);
#166=ORIENTED_EDGE($,*,*,#129,.F.);
#167=ORIENTED_EDGE($,*,*,#139,.F.);
#168=ORIENTED_EDGE($,*,*,#135,.T.);
#169=ORIENTED_EDGE($,*,*,#139,.T.);
#170=ORIENTED_EDGE($,*,*,#132,.F.);
#171=ORIENTED_EDGE($,*,*,#140,.F.);
#172=ORIENTED_EDGE($,*,*,#136,.T.);
#173=ORIENTED_EDGE($,*,*,#140,.T.);
#174=ORIENTED_EDGE($,*,*,#131,.F.);
#175=ORIENTED_EDGE($,*,*,#141,.F.);
#176=ORIENTED_EDGE($,*,*,#133,.T.);
#177=ORIENTED_EDGE($,*,*,#141,.T.);
#178=ORIENTED_EDGE($,*,*,#130,.F.);
#179=ORIENTED_EDGE($,*,*,#138,.F.);
#180=ORIENTED_EDGE($,*,*,#137,.F.);
#181=ORIENTED_EDGE($,*,*,#142,.F.);
#182=ORIENTED_EDGE($,*,*,#142,.T.);
#183=CYLINDRICAL_SURFACE($,#204,19.);
#184=CYLINDRICAL_SURFACE($,#211,21.);
#185=CYLINDRICAL_SURFACE($,#216,20.5);
#186=CYLINDRICAL_SURFACE($,#223,4.864);
#187=ADVANCED_FACE($,(#64,#55),#183,.F.);
#188=ADVANCED_FACE($,(#65),#36,.T.);
#189=ADVANCED_FACE($,(#66,#56),#37,.F.);
#190=ADVANCED_FACE($,(#67,#57),#184,.T.);
#191=ADVANCED_FACE($,(#58,#59),#38,.T.);
#192=ADVANCED_FACE($,(#68,#60),#39,.F.);
#193=ADVANCED_FACE($,(#69,#61),#185,.T.);
#194=ADVANCED_FACE($,(#70,#62),#40,.F.);
#195=ADVANCED_FACE($,(#71),#41,.T.);
#196=ADVANCED_FACE($,(#72),#42,.T.);
#197=ADVANCED_FACE($,(#73),#43,.T.);
#198=ADVANCED_FACE($,(#74),#44,.T.);
#199=ADVANCED_FACE($,(#75,#63),#186,.T.);
#200=ADVANCED_FACE($,(#76),#45,.F.);
#201=CLOSED_SHELL($,(#187,#188,#189,#190,#191,#192,#193,#194,#195,#196,
#197,#198,#199,#200));
#202=MANIFOLD_SOLID_BREP('Solido2',#201);
#203=AXIS2_PLACEMENT_3D('placement',#284,#226,#227);
#204=AXIS2_PLACEMENT_3D($,#285,#228,#229);
#205=AXIS2_PLACEMENT_3D($,#287,#230,#231);
#206=AXIS2_PLACEMENT_3D($,#289,#232,#233);
#207=AXIS2_PLACEMENT_3D($,#290,#234,#235);
#208=AXIS2_PLACEMENT_3D($,#291,#236,#237);
#209=AXIS2_PLACEMENT_3D($,#293,#238,#239);
#210=AXIS2_PLACEMENT_3D($,#295,#240,#241);
#211=AXIS2_PLACEMENT_3D($,#296,#242,#243);
#212=AXIS2_PLACEMENT_3D($,#298,#244,#245);
#213=AXIS2_PLACEMENT_3D($,#299,#246,#247);
#214=AXIS2_PLACEMENT_3D($,#300,#248,#249);
#215=AXIS2_PLACEMENT_3D($,#302,#250,#251);
#216=AXIS2_PLACEMENT_3D($,#311,#256,#257);
#217=AXIS2_PLACEMENT_3D($,#312,#258,#259);
#218=AXIS2_PLACEMENT_3D($,#322,#264,#265);
#219=AXIS2_PLACEMENT_3D($,#323,#266,#267);
#220=AXIS2_PLACEMENT_3D($,#326,#270,#271);
#221=AXIS2_PLACEMENT_3D($,#328,#273,#274);
#222=AXIS2_PLACEMENT_3D($,#330,#276,#277);
#223=AXIS2_PLACEMENT_3D($,#331,#278,#279);
#224=AXIS2_PLACEMENT_3D($,#333,#280,#281);
#225=AXIS2_PLACEMENT_3D($,#334,#282,#283);
#226=DIRECTION('axis',(0.,0.,1.));
#227=DIRECTION('refdir',(1.,0.,0.));
#228=DIRECTION('center_axis',(0.,0.,-1.));
#229=DIRECTION('ref_axis',(-1.,0.,0.));
#230=DIRECTION('center_axis',(0.,0.,-1.));
#231=DIRECTION('ref_axis',(-1.,0.,0.));
#232=DIRECTION('center_axis',(0.,0.,-1.));
#233=DIRECTION('ref_axis',(-1.,0.,0.));
#234=DIRECTION('center_axis',(0.,0.,1.));
#235=DIRECTION('ref_axis',(1.,0.,0.));
#236=DIRECTION('center_axis',(0.,0.,1.));
#237=DIRECTION('ref_axis',(1.,0.,0.));
#238=DIRECTION('center_axis',(0.,0.,-1.));
#239=DIRECTION('ref_axis',(-1.,0.,0.));
#240=DIRECTION('center_axis',(0.,0.,1.));
#241=DIRECTION('ref_axis',(-1.,0.,0.));
#242=DIRECTION('center_axis',(0.,0.,1.));
#243=DIRECTION('ref_axis',(-1.,0.,0.));
#244=DIRECTION('center_axis',(0.,0.,1.));
#245=DIRECTION('ref_axis',(-1.,0.,0.));
#246=DIRECTION('center_axis',(0.,0.,1.));
#247=DIRECTION('ref_axis',(1.,0.,0.));
#248=DIRECTION('center_axis',(0.,0.,1.));
#249=DIRECTION('ref_axis',(1.,0.,0.));
#250=DIRECTION('center_axis',(0.,0.,-1.));
#251=DIRECTION('ref_axis',(-1.,0.,0.));
#252=DIRECTION($,(0.,-1.,0.));
#253=DIRECTION($,(1.,0.,0.));
#254=DIRECTION($,(0.,1.,0.));
#255=DIRECTION($,(-1.,0.,0.));
#256=DIRECTION('center_axis',(0.,0.,1.));
#257=DIRECTION('ref_axis',(-1.,0.,0.));
#258=DIRECTION('center_axis',(0.,0.,1.));
#259=DIRECTION('ref_axis',(1.,0.,0.));
#260=DIRECTION($,(1.,0.,0.));
#261=DIRECTION($,(0.,-1.,0.));
#262=DIRECTION($,(-1.,0.,0.));
#263=DIRECTION($,(0.,1.,0.));
#264=DIRECTION('center_axis',(0.,0.,1.));
#265=DIRECTION('ref_axis',(-1.,0.,0.));
#266=DIRECTION('center_axis',(-1.,0.,0.));
#267=DIRECTION('ref_axis',(0.,-1.,0.));
#268=DIRECTION($,(0.,0.,1.));
#269=DIRECTION($,(0.,0.,1.));
#270=DIRECTION('center_axis',(0.,1.,0.));
#271=DIRECTION('ref_axis',(-1.,0.,0.));
#272=DIRECTION($,(0.,0.,1.));
#273=DIRECTION('center_axis',(1.,0.,0.));
#274=DIRECTION('ref_axis',(0.,1.,0.));
#275=DIRECTION($,(0.,0.,1.));
#276=DIRECTION('center_axis',(0.,-1.,0.));
#277=DIRECTION('ref_axis',(1.,0.,0.));
#278=DIRECTION('center_axis',(0.,0.,1.));
#279=DIRECTION('ref_axis',(-1.,0.,0.));
#280=DIRECTION('center_axis',(0.,0.,-1.));
#281=DIRECTION('ref_axis',(-1.,0.,0.));
#282=DIRECTION('center_axis',(0.,0.,1.));
#283=DIRECTION('ref_axis',(1.,0.,0.));
#284=CARTESIAN_POINT('',(0.,0.,0.));
#285=CARTESIAN_POINT('Origin',(0.,0.,31.));
#286=CARTESIAN_POINT('',(19.,2.32682891837997E-015,30.));
#287=CARTESIAN_POINT('Origin',(0.,0.,30.));
#288=CARTESIAN_POINT('',(19.,2.32682891837997E-015,31.));
#289=CARTESIAN_POINT('Origin',(0.,0.,31.));
#290=CARTESIAN_POINT('Origin',(-9.73006286794932E-016,-3.89551938464967E-016,
30.));
#291=CARTESIAN_POINT('Origin',(-1.62412020524781E-015,0.,22.5));
#292=CARTESIAN_POINT('',(21.,2.57175827820944E-015,22.5));
#293=CARTESIAN_POINT('Origin',(0.,0.,22.5));
#294=CARTESIAN_POINT('',(20.5,2.51052593825207E-015,22.5));
#295=CARTESIAN_POINT('Origin',(0.,0.,22.5));
#296=CARTESIAN_POINT('Origin',(0.,0.,22.5));
#297=CARTESIAN_POINT('',(21.,2.57175827820944E-015,31.));
#298=CARTESIAN_POINT('Origin',(0.,0.,31.));
#299=CARTESIAN_POINT('Origin',(-1.62412020524781E-015,0.,31.));
#300=CARTESIAN_POINT('Origin',(-9.31306771033303E-016,-3.61048138089482E-016,
7.));
#301=CARTESIAN_POINT('',(20.5,2.51052593825207E-015,7.));
#302=CARTESIAN_POINT('Origin',(0.,0.,7.));
#303=CARTESIAN_POINT('',(-7.,7.,7.));
#304=CARTESIAN_POINT('',(-7.,-7.,7.));
#305=CARTESIAN_POINT($,(-7.,7.,7.));
#306=CARTESIAN_POINT('',(7.,-7.,7.));
#307=CARTESIAN_POINT($,(-7.,-7.,7.));
#308=CARTESIAN_POINT('',(7.,7.,7.));
#309=CARTESIAN_POINT($,(7.,-7.,7.));
#310=CARTESIAN_POINT($,(7.,7.,7.));
#311=CARTESIAN_POINT('Origin',(0.,0.,7.));
#312=CARTESIAN_POINT('Origin',(0.,0.,2.));
#313=CARTESIAN_POINT('',(-7.,-7.,2.));
#314=CARTESIAN_POINT('',(7.,-7.,2.));
#315=CARTESIAN_POINT($,(-7.,-7.,2.));
#316=CARTESIAN_POINT('',(-7.,7.,2.));
#317=CARTESIAN_POINT($,(-7.,7.,2.));
#318=CARTESIAN_POINT('',(7.,7.,2.));
#319=CARTESIAN_POINT($,(7.,7.,2.));
#320=CARTESIAN_POINT($,(7.,-7.,2.));
#321=CARTESIAN_POINT('',(4.864,5.95668203105273E-016,2.));
#322=CARTESIAN_POINT('Origin',(0.,0.,2.));
#323=CARTESIAN_POINT('Origin',(-7.,7.,2.));
#324=CARTESIAN_POINT($,(-7.,-7.,2.));
#325=CARTESIAN_POINT($,(-7.,7.,2.));
#326=CARTESIAN_POINT('Origin',(7.,7.,2.));
#327=CARTESIAN_POINT($,(7.,7.,2.));
#328=CARTESIAN_POINT('Origin',(7.,-7.,2.));
#329=CARTESIAN_POINT($,(7.,-7.,2.));
#330=CARTESIAN_POINT('Origin',(-7.,-7.,2.));
#331=CARTESIAN_POINT('Origin',(0.,0.,0.));
#332=CARTESIAN_POINT('',(4.864,5.95668203105273E-016,0.));
#333=CARTESIAN_POINT('Origin',(0.,0.,0.));
#334=CARTESIAN_POINT('Origin',(-2.39849924379037E-016,-9.51054537267986E-017,
0.));
#335=UNCERTAINTY_MEASURE_WITH_UNIT(LENGTH_MEASURE(0.01),#337,
'DISTANCE_ACCURACY_VALUE',
'Maximum model space distance between geometric entities at asserted c
onnectivities');
#336=(
GEOMETRIC_REPRESENTATION_CONTEXT(3)
GLOBAL_UNCERTAINTY_ASSIGNED_CONTEXT((#335))
GLOBAL_UNIT_ASSIGNED_CONTEXT((#337,#340,#338))
REPRESENTATION_CONTEXT('','3D')
);
#337=(
LENGTH_UNIT()
NAMED_UNIT(*)
SI_UNIT(.MILLI.,.METRE.)
);
#338=(
NAMED_UNIT(*)
SI_UNIT($,.STERADIAN.)
SOLID_ANGLE_UNIT()
);
#339=DIMENSIONAL_EXPONENTS(0.,0.,0.,0.,0.,0.,0.);
#340=(
CONVERSION_BASED_UNIT('degree',#342)
NAMED_UNIT(#339)
PLANE_ANGLE_UNIT()
);
#341=(
NAMED_UNIT(*)
PLANE_ANGLE_UNIT()
SI_UNIT($,.RADIAN.)
);
#342=PLANE_ANGLE_MEASURE_WITH_UNIT(PLANE_ANGLE_MEASURE(0.01745329252),#341);
#343=SHAPE_DEFINITION_REPRESENTATION(#344,#345);
#344=PRODUCT_DEFINITION_SHAPE('',$,#347);
#345=SHAPE_REPRESENTATION('',(#203),#336);
#346=PRODUCT_DEFINITION_CONTEXT('3D Mechanical Parts',#350,'design');
#347=PRODUCT_DEFINITION('VVA-B','VVA-B',#348,#346);
#348=PRODUCT_DEFINITION_FORMATION('',$,#352);
#349=APPLICATION_PROTOCOL_DEFINITION('international standard',
'automotive_design',2009,#350);
#350=APPLICATION_CONTEXT(
'Core Data for Automotive Mechanical Design Process');
#351=PRODUCT_CONTEXT('3D Mechanical Parts',#350,'mechanical');
#352=PRODUCT('VVA-B','VVA-B',$,(#351));
#353=PRESENTATION_STYLE_ASSIGNMENT((#356));
#354=PRESENTATION_STYLE_ASSIGNMENT((#357));
#355=PRESENTATION_STYLE_ASSIGNMENT((#358));
#356=SURFACE_STYLE_USAGE(.BOTH.,#359);
#357=SURFACE_STYLE_USAGE(.BOTH.,#360);
#358=SURFACE_STYLE_USAGE(.BOTH.,#361);
#359=SURFACE_SIDE_STYLE($,(#362));
#360=SURFACE_SIDE_STYLE($,(#363));
#361=SURFACE_SIDE_STYLE($,(#364));
#362=SURFACE_STYLE_FILL_AREA(#365);
#363=SURFACE_STYLE_FILL_AREA(#366);
#364=SURFACE_STYLE_FILL_AREA(#367);
#365=FILL_AREA_STYLE($,(#368));
#366=FILL_AREA_STYLE($,(#369));
#367=FILL_AREA_STYLE($,(#370));
#368=FILL_AREA_STYLE_COLOUR($,#371);
#369=FILL_AREA_STYLE_COLOUR($,#372);
#370=FILL_AREA_STYLE_COLOUR($,#373);
#371=COLOUR_RGB('',0.32156862745098,0.32156862745098,0.32156862745098);
#372=COLOUR_RGB('',0.96078431372549,0.96078431372549,0.96078431372549);
#373=COLOUR_RGB('',0.780392156862745,0.568627450980392,0.113725490196078);
ENDSEC;
END-ISO-10303-21;
