ISO-10303-21;
HEADER;
/****************************************************************
 * Generated by software with PDElib inside                    *
 * PDElib Version v51a, created Wed 11/30/2011                  *
 * ITI Transcendata (http://www.transcendata.com/)              *
 ****************************************************************/
FILE_DESCRIPTION((''),'2;1');
FILE_NAME('V:\\Disegni-3D-Cliente\\Accessori\\Indicatori Barometrici\\Manometri\\BVA\\BVA.stp','2014-05-21T14:53:08',('cad10'),(''),'Autodesk Inventor 2013','Autodesk Inventor 2013','');
FILE_SCHEMA(('CONFIG_CONTROL_DESIGN'));
ENDSEC;
DATA;
#5=APPLICATION_CONTEXT('configuration controlled 3D designs of mechanical parts and assemblies');
#6=APPLICATION_PROTOCOL_DEFINITION('International Standard','ap203_configuration_controlled_3d_design_of_mechanical_parts_and_assemblies_mim_lf',2004,#5);
#7=PRODUCT_CONTEXT('',#5,'mechanical');
#8=PRODUCT('BVA','BVA',$,(#7));
#9=PRODUCT_RELATED_PRODUCT_CATEGORY('part',$,(#8));
#10=PRODUCT_DEFINITION_FORMATION('',$,#8);
#11=PRODUCT_DEFINITION_CONTEXT('part definition',#5,'design');
#12=PRODUCT_DEFINITION('',$,#10,#11);
#18=(NAMED_UNIT(*)PLANE_ANGLE_UNIT()SI_UNIT($,.RADIAN.));
#19=DIMENSIONAL_EXPONENTS(0.0,0.0,0.0,0.0,0.0,0.0,0.0);
#20=PLANE_ANGLE_MEASURE_WITH_UNIT(PLANE_ANGLE_MEASURE(0.0174532925),#18);
#24=(CONVERSION_BASED_UNIT('DEGREE',#20)NAMED_UNIT(#19)PLANE_ANGLE_UNIT());
#28=(NAMED_UNIT(*)SI_UNIT($,.STERADIAN.)SOLID_ANGLE_UNIT());
#32=(LENGTH_UNIT()NAMED_UNIT(*)SI_UNIT(.MILLI.,.METRE.));
#34=UNCERTAINTY_MEASURE_WITH_UNIT(LENGTH_MEASURE(0.01),#32,'DISTANCE_ACCURACY_VALUE','');
#36=(GEOMETRIC_REPRESENTATION_CONTEXT(3)GLOBAL_UNCERTAINTY_ASSIGNED_CONTEXT((#34))GLOBAL_UNIT_ASSIGNED_CONTEXT((#24,#28,#32))REPRESENTATION_CONTEXT('None','None'));
#37=AXIS2_PLACEMENT_3D('',#38,#39,#40);
#38=CARTESIAN_POINT('',(0.0,0.0,0.0));
#39=DIRECTION('',(0.0,0.0,1.0));
#40=DIRECTION('',(1.0,0.0,0.0));
#41=SHAPE_REPRESENTATION('',(#37),#36);
#42=PRODUCT_DEFINITION_SHAPE('','',#12);
#43=SHAPE_DEFINITION_REPRESENTATION(#42,#41);
#49=(NAMED_UNIT(*)PLANE_ANGLE_UNIT()SI_UNIT($,.RADIAN.));
#50=DIMENSIONAL_EXPONENTS(0.0,0.0,0.0,0.0,0.0,0.0,0.0);
#51=PLANE_ANGLE_MEASURE_WITH_UNIT(PLANE_ANGLE_MEASURE(0.0174532925),#49);
#55=(CONVERSION_BASED_UNIT('DEGREE',#51)NAMED_UNIT(#50)PLANE_ANGLE_UNIT());
#59=(NAMED_UNIT(*)SI_UNIT($,.STERADIAN.)SOLID_ANGLE_UNIT());
#63=(LENGTH_UNIT()NAMED_UNIT(*)SI_UNIT(.MILLI.,.METRE.));
#65=UNCERTAINTY_MEASURE_WITH_UNIT(LENGTH_MEASURE(0.000001),#63,'DISTANCE_ACCURACY_VALUE','');
#67=(GEOMETRIC_REPRESENTATION_CONTEXT(3)GLOBAL_UNCERTAINTY_ASSIGNED_CONTEXT((#65))GLOBAL_UNIT_ASSIGNED_CONTEXT((#55,#59,#63))REPRESENTATION_CONTEXT('','3D'));
#68=CARTESIAN_POINT('',(0.0,0.0,30.500000000000004));
#69=DIRECTION('',(0.0,0.0,-1.0));
#70=DIRECTION('',(-1.0,0.0,0.0));
#71=AXIS2_PLACEMENT_3D('',#68,#69,#70);
#72=CYLINDRICAL_SURFACE('',#71,19.249999999999996);
#73=CARTESIAN_POINT('',(19.249999999999996,2.357445E-015,29.5));
#74=VERTEX_POINT('',#73);
#75=CARTESIAN_POINT('',(0.0,0.0,29.5));
#76=DIRECTION('',(0.0,0.0,-1.0));
#77=DIRECTION('',(-1.0,0.0,0.0));
#78=AXIS2_PLACEMENT_3D('',#75,#76,#77);
#79=CIRCLE('',#78,19.249999999999996);
#80=EDGE_CURVE('',#74,#74,#79,.T.);
#81=ORIENTED_EDGE('',*,*,#80,.T.);
#82=EDGE_LOOP('',(#81));
#83=FACE_OUTER_BOUND('',#82,.T.);
#84=CARTESIAN_POINT('',(19.249999999999996,2.357445E-015,30.500000000000004));
#85=VERTEX_POINT('',#84);
#86=CARTESIAN_POINT('',(0.0,0.0,30.500000000000004));
#87=DIRECTION('',(0.0,0.0,-1.0));
#88=DIRECTION('',(-1.0,0.0,0.0));
#89=AXIS2_PLACEMENT_3D('',#86,#87,#88);
#90=CIRCLE('',#89,19.249999999999996);
#91=EDGE_CURVE('',#85,#85,#90,.T.);
#92=ORIENTED_EDGE('',*,*,#91,.F.);
#93=EDGE_LOOP('',(#92));
#94=FACE_BOUND('',#93,.T.);
#95=ADVANCED_FACE('',(#83,#94),#72,.F.);
#96=CARTESIAN_POINT('',(-9.654394E-016,-3.844928E-016,29.499999999999996));
#97=DIRECTION('',(0.0,0.0,1.0));
#98=DIRECTION('',(1.0,0.0,0.0));
#99=AXIS2_PLACEMENT_3D('',#96,#97,#98);
#100=PLANE('',#99);
#101=ORIENTED_EDGE('',*,*,#80,.F.);
#102=EDGE_LOOP('',(#101));
#103=FACE_OUTER_BOUND('',#102,.T.);
#104=ADVANCED_FACE('',(#103),#100,.T.);
#105=CARTESIAN_POINT('',(-9.134751E-016,3.483053E-016,22.0));
#106=DIRECTION('',(0.0,0.0,1.0));
#107=DIRECTION('',(1.0,0.0,0.0));
#108=AXIS2_PLACEMENT_3D('',#105,#106,#107);
#109=PLANE('',#108);
#110=CARTESIAN_POINT('',(21.249999999999996,2.602374E-015,22.0));
#111=VERTEX_POINT('',#110);
#112=CARTESIAN_POINT('',(0.0,0.0,22.0));
#113=DIRECTION('',(0.0,0.0,-1.0));
#114=DIRECTION('',(-1.0,0.0,0.0));
#115=AXIS2_PLACEMENT_3D('',#112,#113,#114);
#116=CIRCLE('',#115,21.249999999999996);
#117=EDGE_CURVE('',#111,#111,#116,.T.);
#118=ORIENTED_EDGE('',*,*,#117,.T.);
#119=EDGE_LOOP('',(#118));
#120=FACE_OUTER_BOUND('',#119,.T.);
#121=CARTESIAN_POINT('',(20.500000000000004,2.510526E-015,22.0));
#122=VERTEX_POINT('',#121);
#123=CARTESIAN_POINT('',(0.0,0.0,22.0));
#124=DIRECTION('',(0.0,0.0,1.0));
#125=DIRECTION('',(-1.0,0.0,0.0));
#126=AXIS2_PLACEMENT_3D('',#123,#124,#125);
#127=CIRCLE('',#126,20.500000000000004);
#128=EDGE_CURVE('',#122,#122,#127,.T.);
#129=ORIENTED_EDGE('',*,*,#128,.T.);
#130=EDGE_LOOP('',(#129));
#131=FACE_BOUND('',#130,.T.);
#132=ADVANCED_FACE('',(#120,#131),#109,.F.);
#133=CARTESIAN_POINT('',(0.0,0.0,22.0));
#134=DIRECTION('',(0.0,0.0,1.0));
#135=DIRECTION('',(-1.0,0.0,0.0));
#136=AXIS2_PLACEMENT_3D('',#133,#134,#135);
#137=CYLINDRICAL_SURFACE('',#136,21.249999999999996);
#138=CARTESIAN_POINT('',(21.249999999999996,2.602374E-015,30.500000000000004));
#139=VERTEX_POINT('',#138);
#140=CARTESIAN_POINT('',(0.0,0.0,30.500000000000004));
#141=DIRECTION('',(0.0,0.0,1.0));
#142=DIRECTION('',(-1.0,0.0,0.0));
#143=AXIS2_PLACEMENT_3D('',#140,#141,#142);
#144=CIRCLE('',#143,21.249999999999996);
#145=EDGE_CURVE('',#139,#139,#144,.T.);
#146=ORIENTED_EDGE('',*,*,#145,.F.);
#147=EDGE_LOOP('',(#146));
#148=FACE_OUTER_BOUND('',#147,.T.);
#149=ORIENTED_EDGE('',*,*,#117,.F.);
#150=EDGE_LOOP('',(#149));
#151=FACE_BOUND('',#150,.T.);
#152=ADVANCED_FACE('',(#148,#151),#137,.T.);
#153=CARTESIAN_POINT('',(-9.134751E-016,3.483053E-016,30.500000000000004));
#154=DIRECTION('',(0.0,0.0,1.0));
#155=DIRECTION('',(1.0,0.0,0.0));
#156=AXIS2_PLACEMENT_3D('',#153,#154,#155);
#157=PLANE('',#156);
#158=ORIENTED_EDGE('',*,*,#145,.T.);
#159=EDGE_LOOP('',(#158));
#160=FACE_OUTER_BOUND('',#159,.T.);
#161=ORIENTED_EDGE('',*,*,#91,.T.);
#162=EDGE_LOOP('',(#161));
#163=FACE_BOUND('',#162,.T.);
#164=ADVANCED_FACE('',(#160,#163),#157,.T.);
#165=CARTESIAN_POINT('',(-9.313068E-016,-3.610481E-016,5.499999999999999));
#166=DIRECTION('',(0.0,0.0,1.0));
#167=DIRECTION('',(1.0,0.0,0.0));
#168=AXIS2_PLACEMENT_3D('',#165,#166,#167);
#169=PLANE('',#168);
#170=CARTESIAN_POINT('',(20.500000000000004,2.510526E-015,5.5));
#171=VERTEX_POINT('',#170);
#172=CARTESIAN_POINT('',(0.0,0.0,5.5));
#173=DIRECTION('',(0.0,0.0,-1.0));
#174=DIRECTION('',(-1.0,0.0,0.0));
#175=AXIS2_PLACEMENT_3D('',#172,#173,#174);
#176=CIRCLE('',#175,20.500000000000004);
#177=EDGE_CURVE('',#171,#171,#176,.T.);
#178=ORIENTED_EDGE('',*,*,#177,.T.);
#179=EDGE_LOOP('',(#178));
#180=FACE_OUTER_BOUND('',#179,.T.);
#181=CARTESIAN_POINT('',(-5.5,5.5,5.5));
#182=VERTEX_POINT('',#181);
#183=CARTESIAN_POINT('',(-5.5,-5.5,5.5));
#184=VERTEX_POINT('',#183);
#185=CARTESIAN_POINT('',(-5.5,5.5,5.5));
#186=DIRECTION('',(0.0,-1.0,0.0));
#187=VECTOR('',#186,11.0);
#188=LINE('',#185,#187);
#189=EDGE_CURVE('',#182,#184,#188,.T.);
#190=ORIENTED_EDGE('',*,*,#189,.T.);
#191=CARTESIAN_POINT('',(5.5,-5.5,5.5));
#192=VERTEX_POINT('',#191);
#193=CARTESIAN_POINT('',(-5.5,-5.5,5.5));
#194=DIRECTION('',(1.0,0.0,0.0));
#195=VECTOR('',#194,11.0);
#196=LINE('',#193,#195);
#197=EDGE_CURVE('',#184,#192,#196,.T.);
#198=ORIENTED_EDGE('',*,*,#197,.T.);
#199=CARTESIAN_POINT('',(5.5,5.5,5.5));
#200=VERTEX_POINT('',#199);
#201=CARTESIAN_POINT('',(5.5,-5.5,5.5));
#202=DIRECTION('',(0.0,1.0,0.0));
#203=VECTOR('',#202,11.0);
#204=LINE('',#201,#203);
#205=EDGE_CURVE('',#192,#200,#204,.T.);
#206=ORIENTED_EDGE('',*,*,#205,.T.);
#207=CARTESIAN_POINT('',(5.5,5.5,5.5));
#208=DIRECTION('',(-1.0,0.0,0.0));
#209=VECTOR('',#208,11.0);
#210=LINE('',#207,#209);
#211=EDGE_CURVE('',#200,#182,#210,.T.);
#212=ORIENTED_EDGE('',*,*,#211,.T.);
#213=EDGE_LOOP('',(#190,#198,#206,#212));
#214=FACE_BOUND('',#213,.T.);
#215=ADVANCED_FACE('',(#180,#214),#169,.F.);
#216=CARTESIAN_POINT('',(0.0,0.0,5.5));
#217=DIRECTION('',(0.0,0.0,1.0));
#218=DIRECTION('',(-1.0,0.0,0.0));
#219=AXIS2_PLACEMENT_3D('',#216,#217,#218);
#220=CYLINDRICAL_SURFACE('',#219,20.500000000000004);
#221=ORIENTED_EDGE('',*,*,#128,.F.);
#222=EDGE_LOOP('',(#221));
#223=FACE_OUTER_BOUND('',#222,.T.);
#224=ORIENTED_EDGE('',*,*,#177,.F.);
#225=EDGE_LOOP('',(#224));
#226=FACE_BOUND('',#225,.T.);
#227=ADVANCED_FACE('',(#223,#226),#220,.T.);
#228=CARTESIAN_POINT('',(0.0,0.0,2.0));
#229=DIRECTION('',(0.0,0.0,1.0));
#230=DIRECTION('',(1.0,0.0,0.0));
#231=AXIS2_PLACEMENT_3D('',#228,#229,#230);
#232=PLANE('',#231);
#233=CARTESIAN_POINT('',(-5.5,-5.5,2.0));
#234=VERTEX_POINT('',#233);
#235=CARTESIAN_POINT('',(5.5,-5.5,2.0));
#236=VERTEX_POINT('',#235);
#237=CARTESIAN_POINT('',(-5.5,-5.5,2.0));
#238=DIRECTION('',(1.0,0.0,0.0));
#239=VECTOR('',#238,11.0);
#240=LINE('',#237,#239);
#241=EDGE_CURVE('',#234,#236,#240,.T.);
#242=ORIENTED_EDGE('',*,*,#241,.F.);
#243=CARTESIAN_POINT('',(-5.5,5.5,2.0));
#244=VERTEX_POINT('',#243);
#245=CARTESIAN_POINT('',(-5.5,5.5,2.0));
#246=DIRECTION('',(0.0,-1.0,0.0));
#247=VECTOR('',#246,11.0);
#248=LINE('',#245,#247);
#249=EDGE_CURVE('',#244,#234,#248,.T.);
#250=ORIENTED_EDGE('',*,*,#249,.F.);
#251=CARTESIAN_POINT('',(5.5,5.5,2.0));
#252=VERTEX_POINT('',#251);
#253=CARTESIAN_POINT('',(5.5,5.5,2.0));
#254=DIRECTION('',(-1.0,0.0,0.0));
#255=VECTOR('',#254,11.0);
#256=LINE('',#253,#255);
#257=EDGE_CURVE('',#252,#244,#256,.T.);
#258=ORIENTED_EDGE('',*,*,#257,.F.);
#259=CARTESIAN_POINT('',(5.5,-5.5,2.0));
#260=DIRECTION('',(0.0,1.0,0.0));
#261=VECTOR('',#260,11.0);
#262=LINE('',#259,#261);
#263=EDGE_CURVE('',#236,#252,#262,.T.);
#264=ORIENTED_EDGE('',*,*,#263,.F.);
#265=EDGE_LOOP('',(#242,#250,#258,#264));
#266=FACE_OUTER_BOUND('',#265,.T.);
#267=CARTESIAN_POINT('',(4.864,5.956682E-016,2.0));
#268=VERTEX_POINT('',#267);
#269=CARTESIAN_POINT('',(0.0,0.0,2.0));
#270=DIRECTION('',(0.0,0.0,1.0));
#271=DIRECTION('',(-1.0,0.0,0.0));
#272=AXIS2_PLACEMENT_3D('',#269,#270,#271);
#273=CIRCLE('',#272,4.864);
#274=EDGE_CURVE('',#268,#268,#273,.T.);
#275=ORIENTED_EDGE('',*,*,#274,.T.);
#276=EDGE_LOOP('',(#275));
#277=FACE_BOUND('',#276,.T.);
#278=ADVANCED_FACE('',(#266,#277),#232,.F.);
#279=CARTESIAN_POINT('',(-5.5,5.5,2.0));
#280=DIRECTION('',(-1.0,0.0,0.0));
#281=DIRECTION('',(0.0,-1.0,0.0));
#282=AXIS2_PLACEMENT_3D('',#279,#280,#281);
#283=PLANE('',#282);
#284=ORIENTED_EDGE('',*,*,#249,.T.);
#285=CARTESIAN_POINT('',(-5.5,-5.5,2.0));
#286=DIRECTION('',(0.0,0.0,1.0));
#287=VECTOR('',#286,3.5);
#288=LINE('',#285,#287);
#289=EDGE_CURVE('',#234,#184,#288,.T.);
#290=ORIENTED_EDGE('',*,*,#289,.T.);
#291=ORIENTED_EDGE('',*,*,#189,.F.);
#292=CARTESIAN_POINT('',(-5.5,5.5,2.0));
#293=DIRECTION('',(0.0,0.0,1.0));
#294=VECTOR('',#293,3.5);
#295=LINE('',#292,#294);
#296=EDGE_CURVE('',#244,#182,#295,.T.);
#297=ORIENTED_EDGE('',*,*,#296,.F.);
#298=EDGE_LOOP('',(#284,#290,#291,#297));
#299=FACE_OUTER_BOUND('',#298,.T.);
#300=ADVANCED_FACE('',(#299),#283,.T.);
#301=CARTESIAN_POINT('',(5.5,5.5,2.0));
#302=DIRECTION('',(0.0,1.0,0.0));
#303=DIRECTION('',(-1.0,0.0,0.0));
#304=AXIS2_PLACEMENT_3D('',#301,#302,#303);
#305=PLANE('',#304);
#306=ORIENTED_EDGE('',*,*,#257,.T.);
#307=ORIENTED_EDGE('',*,*,#296,.T.);
#308=ORIENTED_EDGE('',*,*,#211,.F.);
#309=CARTESIAN_POINT('',(5.5,5.5,2.0));
#310=DIRECTION('',(0.0,0.0,1.0));
#311=VECTOR('',#310,3.5);
#312=LINE('',#309,#311);
#313=EDGE_CURVE('',#252,#200,#312,.T.);
#314=ORIENTED_EDGE('',*,*,#313,.F.);
#315=EDGE_LOOP('',(#306,#307,#308,#314));
#316=FACE_OUTER_BOUND('',#315,.T.);
#317=ADVANCED_FACE('',(#316),#305,.T.);
#318=CARTESIAN_POINT('',(5.5,-5.5,2.0));
#319=DIRECTION('',(1.0,0.0,0.0));
#320=DIRECTION('',(0.0,1.0,0.0));
#321=AXIS2_PLACEMENT_3D('',#318,#319,#320);
#322=PLANE('',#321);
#323=ORIENTED_EDGE('',*,*,#263,.T.);
#324=ORIENTED_EDGE('',*,*,#313,.T.);
#325=ORIENTED_EDGE('',*,*,#205,.F.);
#326=CARTESIAN_POINT('',(5.5,-5.5,2.0));
#327=DIRECTION('',(0.0,0.0,1.0));
#328=VECTOR('',#327,3.5);
#329=LINE('',#326,#328);
#330=EDGE_CURVE('',#236,#192,#329,.T.);
#331=ORIENTED_EDGE('',*,*,#330,.F.);
#332=EDGE_LOOP('',(#323,#324,#325,#331));
#333=FACE_OUTER_BOUND('',#332,.T.);
#334=ADVANCED_FACE('',(#333),#322,.T.);
#335=CARTESIAN_POINT('',(-5.5,-5.5,2.0));
#336=DIRECTION('',(0.0,-1.0,0.0));
#337=DIRECTION('',(1.0,0.0,0.0));
#338=AXIS2_PLACEMENT_3D('',#335,#336,#337);
#339=PLANE('',#338);
#340=ORIENTED_EDGE('',*,*,#241,.T.);
#341=ORIENTED_EDGE('',*,*,#330,.T.);
#342=ORIENTED_EDGE('',*,*,#197,.F.);
#343=ORIENTED_EDGE('',*,*,#289,.F.);
#344=EDGE_LOOP('',(#340,#341,#342,#343));
#345=FACE_OUTER_BOUND('',#344,.T.);
#346=ADVANCED_FACE('',(#345),#339,.T.);
#347=CARTESIAN_POINT('',(0.0,0.0,0.0));
#348=DIRECTION('',(0.0,0.0,1.0));
#349=DIRECTION('',(-1.0,0.0,0.0));
#350=AXIS2_PLACEMENT_3D('',#347,#348,#349);
#351=CYLINDRICAL_SURFACE('',#350,4.864);
#352=ORIENTED_EDGE('',*,*,#274,.F.);
#353=EDGE_LOOP('',(#352));
#354=FACE_OUTER_BOUND('',#353,.T.);
#355=CARTESIAN_POINT('',(4.864,5.956682E-016,0.0));
#356=VERTEX_POINT('',#355);
#357=CARTESIAN_POINT('',(0.0,0.0,0.0));
#358=DIRECTION('',(0.0,0.0,-1.0));
#359=DIRECTION('',(-1.0,0.0,0.0));
#360=AXIS2_PLACEMENT_3D('',#357,#358,#359);
#361=CIRCLE('',#360,4.864);
#362=EDGE_CURVE('',#356,#356,#361,.T.);
#363=ORIENTED_EDGE('',*,*,#362,.F.);
#364=EDGE_LOOP('',(#363));
#365=FACE_BOUND('',#364,.T.);
#366=ADVANCED_FACE('',(#354,#365),#351,.T.);
#367=CARTESIAN_POINT('',(-2.398499E-016,-9.510545E-017,0.0));
#368=DIRECTION('',(0.0,0.0,1.0));
#369=DIRECTION('',(1.0,0.0,0.0));
#370=AXIS2_PLACEMENT_3D('',#367,#368,#369);
#371=PLANE('',#370);
#372=ORIENTED_EDGE('',*,*,#362,.T.);
#373=EDGE_LOOP('',(#372));
#374=FACE_OUTER_BOUND('',#373,.T.);
#375=ADVANCED_FACE('',(#374),#371,.F.);
#376=CLOSED_SHELL('',(#95,#104,#132,#152,#164,#215,#227,#278,#300,#317,#334,#346,#366,#375));
#377=MANIFOLD_SOLID_BREP('Solido2',#376);
#378=COLOUR_RGB('',0.959999978542328,0.959999978542328,0.959999978542328);
#379=FILL_AREA_STYLE_COLOUR('',#378);
#380=FILL_AREA_STYLE('',(#379));
#381=SURFACE_STYLE_FILL_AREA(#380);
#382=SURFACE_SIDE_STYLE('',(#381));
#383=SURFACE_STYLE_USAGE(.BOTH.,#382);
#384=PRESENTATION_STYLE_ASSIGNMENT((#383));
#385=STYLED_ITEM('',(#384),#104);
#386=COLOUR_RGB('',0.780391991138458,0.568626999855042,0.113724999129772);
#387=FILL_AREA_STYLE_COLOUR('',#386);
#388=FILL_AREA_STYLE('',(#387));
#389=SURFACE_STYLE_FILL_AREA(#388);
#390=SURFACE_SIDE_STYLE('',(#389));
#391=SURFACE_STYLE_USAGE(.BOTH.,#390);
#392=PRESENTATION_STYLE_ASSIGNMENT((#391));
#393=STYLED_ITEM('',(#392),#278);
#394=STYLED_ITEM('',(#392),#300);
#395=STYLED_ITEM('',(#392),#317);
#396=STYLED_ITEM('',(#392),#334);
#397=STYLED_ITEM('',(#392),#346);
#398=STYLED_ITEM('',(#392),#366);
#399=STYLED_ITEM('',(#392),#375);
#400=MECHANICAL_DESIGN_GEOMETRIC_PRESENTATION_REPRESENTATION('',(#385,#393,#394,#395,#396,#397,#398,#399,#408),#67);
#401=COLOUR_RGB('Lucida - Nero',0.321568995714188,0.321568995714188,0.321568995714188);
#402=FILL_AREA_STYLE_COLOUR('Lucida - Nero',#401);
#403=FILL_AREA_STYLE('Lucida - Nero',(#402));
#404=SURFACE_STYLE_FILL_AREA(#403);
#405=SURFACE_SIDE_STYLE('Lucida - Nero',(#404));
#406=SURFACE_STYLE_USAGE(.BOTH.,#405);
#407=PRESENTATION_STYLE_ASSIGNMENT((#406));
#408=STYLED_ITEM('',(#407),#377);
#409=ADVANCED_BREP_SHAPE_REPRESENTATION('ABSR',(#377),#36);
#410=SHAPE_REPRESENTATION_RELATIONSHIP('SRR','None',#409,#41);
ENDSEC;
END-ISO-10303-21;
